problemen met tab

Heb je iets te vragen over je techniek? Lastige muziektheorie? Wil je je kennis met het forum delen? Post het hier!
Plaats reactie
slap
Berichten: 102
Lid geworden op: 18 dec 2004, 15:09

problemen met tab

Bericht door slap » 23 aug 2005, 11:14

Heb het internet afgestruind naar een fatsoenlijke tab voor You're the one I want van grease. Nou staat er overal dezelfde maar volgens mij klopt ie niet. Bijkomende moeilijkheid is dat er helemaal geen maatstrepen staan.

het gaat om deze tab http://www.bassmasta.net/g/grease/132479.html

Zou iemand hier naar kunnen kijken? thanks!
(\_/)
(O.o) This is Bunny.
(> <) Copy Bunny into your signature to help him on his way to world Domination.

Gebruikersavatar
PLukkie
Berichten: 156
Lid geworden op: 20 dec 2004, 00:11

Bericht door PLukkie » 23 aug 2005, 13:35

Check deze:

http://www.basstabarchive.com/cgi-bin/t ... _want.btab

Naar mijn idee klopt die best wel....
Blaat het niet, dan schaapt het niet

Gebruikersavatar
Rodi
Berichten: 1598
Lid geworden op: 13 mei 2005, 11:46

Bericht door Rodi » 23 aug 2005, 14:30

Eindelijk ben ik begonnen met het uitzoeken van de nummers van de Blues Brothers, en gelijk in het eerste nummer heb ik een probleem:
Ik heb een tab gevonden, en deze zelf aangepast/verbeterd, maar 1 maat lukt me niet. Wat er nu staat is onspeelbaar voor mij, het gaat om de 2e maat van het refrein.

Code: Selecteer alles

Blues Brothers – She caugt the katy

Intro: 3x spelen
         |       |       |        |       |       |       |        
|*----tempo 96--------------------|--------------------------------*|
|*--------------------------------|--------------------------------*|
|*--------------------------------|1-------------------------------*|
|*----------------------------1---|--------------------------------*|

|       |       |       |        
|--------------------------------|
|--------------------------------|
|--------------------------------|
|--------------------------------|
Couplet1

                            2 x spelen
 |       |       |       |        |       |       |       |        
|*--------0-----------------------|--------7-----------------------|
|*------------3-------------------|------------10------------------|
|*1---1-----------1-1-------------|8---8-----------8-8-------------|
|*--------------------3---1---3---|--------------------10--8---10--|

 |       |       |       |        |       |       |       |        
|--------------------------------|--------------------------------*|
|--------------------------------|--------------------------------*|
|1---1-----------1-1-------------|1---1-----------1-1-------------*|
|--------3---1-------3---1---3---|--------3---1-------3---1---3---*|


Refrein1
|       |       |       |         |       |       |       |        
|--------------------------------|------7-----5-7-----6-7-----7---|
|--------------------------------|----8---------------------------|
|1---1-----------1-1-------------|--------3-------4-------5-------|
|--------3---1-------3---1---3---|6-------------------------------|

|       |       |       |         |       |       |       |        
|----8-------------5-------------|--------------------5---6-------|
|--------5---6-7-8---8---5-------|--------6---7---8---------------|
|6-----5---------------------6---|7-------------------------------|
|--------------------------------|--------------------------------|

|       |       |       |         |       |       |       |        
|------------3-------------------|--------------------------------|
|----------------0-------1---2---|3---3-------3-------3---0-------|
|1---1---------------------------|--------------------------3-1---|
|--------------------------------|--------------------------------|

 |       |       |       |        |       |       |       |        
|--------------------------------|--------------------------------|
|--------------------------------|--------------------------------|
|1---1-----------1-1-------------|1---1-----------1-1-------------|
|--------3---1-------3---1---3---|--------3---1-------3---1---3---|
aanwijzing timing: 1streepje=16e noot
Klopt het wat ik uitgezocht heb, en moet ik gewoon keihard oefenen(aarrgggg die spreiding gaat me nooit lukken, van 3e fret op A-snaar naar 7e fret op G-snaar :( ) of wordt er iets anders gespeeld?

Hellup!!! :wink:

Gebruikersavatar
urje
Berichten: 1063
Lid geworden op: 26 jan 2005, 01:24

Bericht door urje » 23 aug 2005, 14:42

ik zou dan een 8 op de E snaar spelen ipv 3 op de A.
Tokai hardpuncher, Jap Fender '62RI P-bas, Bass Big Muff, Maxon OD-9, Trace Elliot V-type V4, Aguilar GS412.
captain, your ship is sinking.

Gebruikersavatar
Squire
Berichten: 6053
Lid geworden op: 29 jul 2004, 10:33

Bericht door Squire » 23 aug 2005, 15:11

Precies gewoon:

Code: Selecteer alles

     
|------7-------7-----6-7-----7---| 
|----8-------5-------------------|
|--------------------------5-----|
|6-------8-------9---------------|
Rickenbacker 4001CS
Fender 'Geddy Lee' Jazz bass

Ampeg V4 '70s
Ampeg pf115lf

Gebruikersavatar
Rodi
Berichten: 1598
Lid geworden op: 13 mei 2005, 11:46

Bericht door Rodi » 23 aug 2005, 17:28

bedankt mannen...dat ik daar zelf niet opkwam :oops:

Nu alleen nog hard oefenen om het op tempo te kunnen...ik vind het best snel 16e nootjes op 96bpm en dan met die spreiding van de noten.

Gebruikersavatar
daantje
Berichten: 78
Lid geworden op: 01 jul 2005, 20:32

Bericht door daantje » 23 aug 2005, 18:18

staan er normaal wel maatstrepen dan? nog nooit eerder gezien :?
Wat It Dit?

Gebruikersavatar
Q.
moddergegeten
Berichten: 2547
Lid geworden op: 30 nov 2003, 19:17

Bericht door Q. » 23 aug 2005, 18:36

Ik zou sowieso nog even naar de tab kijken Rodi als ik jou was, de vingerzetting is zo onlogisch als de pest. De tweede maat van het couplet kan je veel logischer en handiger spelen bijvoorbeeld.

Gebruikersavatar
Rodi
Berichten: 1598
Lid geworden op: 13 mei 2005, 11:46

Bericht door Rodi » 23 aug 2005, 20:03

daantje schreef:staan er normaal wel maatstrepen dan? nog nooit eerder gezien :?
Ik probeer zelf altijd de timing goed uit te vinden, en per streepje 8e of 16e maten te noteren. Maar ik kom zat slechte tabs tegen zonder enige maatstrepen. Een goede tab heeft deze wel.
Q. schreef:Ik zou sowieso nog even naar de tab kijken Rodi als ik jou was, de vingerzetting is zo onlogisch als de pest. De tweede maat van het couplet kan je veel logischer en handiger spelen bijvoorbeeld.
Wat zou jij dan anders doen in de 2e maat van het couplet...het enige nadeel is dat je een stukkie moet schuiven van maat 1 naar maat 2, maar het patroontje is zo lekker makkelijk te spelen.
In de 3e maat heb ik een kleine verandering gemaakt(maar die speelde ik al zoals hij hier staat)
Ik heb de 2e maat van het refrein aangepast, maar ik ga nog een keer goed luisteren naar het nummer, want het kan ook zijn dat er iets anders gespeeld worden. Maar dit lijkt er voorlopig het meeste op.

Code: Selecteer alles

Blues Brothers – She caugt the katy

Intro: 3x spelen
         |       |       |        |       |       |       |       
|*----tempo 96--------------------|--------------------------------*|
|*--------------------------------|--------------------------------*|
|*--------------------------------|1-------------------------------*|
|*----------------------------1---|--------------------------------*|

|       |       |       |       
|--------------------------------|
|--------------------------------|
|--------------------------------|
|--------------------------------|
Couplet1

                            2 x spelen
 |       |       |       |        |       |       |       |       
|*--------0-----------------------|--------7-----------------------|
|*------------3-------------------|------------10------------------|
|*1---1-----------1-1-------------|8---8-----------8-8-------------|
|*--------------------3---1---3---|--------------------10--8---10--|

 |       |       |       |        |       |       |       |       
|--------------------------------|--------------------------------*|
|--------------------------------|--------------------------------*|
|1---1-----------1-1-------------|1---1-----------1-1-------------*|
|--------3---1-------3---1---3---|--------3---1-------3---1---3---*|


Refrein1
|       |       |       |         |       |       |       |       
|--------------------------------|------7-----5-7-----6-7-----7---|
|--------------------------------|----8---------------------------|
|1---1-----------1-1-------------|----------------4-------5-------|
|--------3---1-------3---1---3---|6-------8-----------------------|

|       |       |       |         |       |       |       |       
|----8-------------5-------------|--------------------5---6-------|
|------0-5---6-7-8---8---5-------|--------6---7---8---------------|
|6---------------------------6---|7-------------------------------|
|--------------------------------|--------------------------------|

|       |       |       |         |       |       |       |       
|------------3-------------------|--------------------------------|
|----------------0-------1---2---|3---3-------3-------3---0-------|
|1---1---------------------------|--------------------------3-1---|
|--------------------------------|--------------------------------|

 |       |       |       |        |       |       |       |       
|--------------------------------|--------------------------------|
|--------------------------------|--------------------------------|
|1---1-----------1-1-------------|1---1-----------1-1-------------|
|--------3---1-------3---1---3---|--------3---1-------3---1---3---| 

slap
Berichten: 102
Lid geworden op: 18 dec 2004, 15:09

Bericht door slap » 24 aug 2005, 11:57

PLukkie schreef:Check deze:

http://www.basstabarchive.com/cgi-bin/t ... _want.btab

Naar mijn idee klopt die best wel....
Bedankt!!! :thumbsup:
(\_/)
(O.o) This is Bunny.
(> <) Copy Bunny into your signature to help him on his way to world Domination.

Plaats reactie

Wie is er online

Gebruikers op dit forum: Geen geregistreerde gebruikers en 3 gasten